Tokio Hotel Forever

Forum sur le groupe Allemand Tokio Hotel
 
AccueilPortailRechercherS'enregistrerConnexion
-50%
Le deal à ne pas rater :
Promo sur un arbre à chat géant – 154cm de hauteur
68.99 € 138.99 €
Voir le deal

Partagez
 

 Tablature "Durch den monsun"

Aller en bas 
AuteurMessage
la-miss-kaulitz-13
TH disciple
la-miss-kaulitz-13

Féminin Nombre de messages : 57
Age : 25
Localisation : ~~Loin ... bien trop loin de ma vie ~~
Date d'inscription : 17/02/2007

Tablature "Durch den monsun" Empty
MessageSujet: Tablature "Durch den monsun"   Tablature "Durch den monsun" Icon_minitimeLun 19 Fév - 11:05

Intro:]
e|000-000-0-000-000-0-----------------------------------------------|
b|000-000-0-111-111-1-----------------------------------------------|
g|111-222-1-000-000-0-----------------------------------------------|
d|222-222-2-222-333-2-----------------------------------------------|
a|222-222-2-333-333-3-----------------------------------------------|
e|000-000-0---------------------------------------------------------|



[Verse:]
e|000-000-0-000-000-0-----------------------------------------------|
b|000-000-0-111-111-1-----------------------------------------------|
g|111-222-1-000-000-0-----X3----------------------------------------|
d|222-222-2-222-333-2----------7777777-5555555----------------------|
a|222-222-2-333-333-3----------7777777-5555555----------------------|
e|000-000-0--------------------5555555-3333333----------------------|




e|000-000-0-000-000-0-----------------------------------------------|
b|000-000-0-111-111-1-----------------------------------------------|
g|111-222-1-000-000-0-----X3----------------------------------------|
d|222-222-2-222-333-2----------7777777-5555555----------------------|
a|222-222-2-333-333-3----------7777777-5555555----------------------|
e|000-000-0--------------------5555555-3333333----------------------|



[Chorus:]
Guitar 1:
e|------------------------------------------------------------------|
b|------------------------------------------------------------------|
g|555-555-5-777-777-7-999-999-9-777-777-7---------------------------|
d|555-555-5-777-777-7-999-999-9-777-777-7---------------------------|
a|333-333-3-555-555-5-777-777-7-555-555-5---------------------------|
e|------------------------------------------------------------------|




e|------------------------------------------------------------------|
b|------------------------------------------------------------------|
g|555-555-5-777-777-7-444-444-4-999-999-9---------------------------|
d|555-555-5-777-777-7-444-444-4-999-999-9---------------------------|
a|333-333-3-555-555-5-222-222-2-777-777-7---------------------------|
e|------------------------------------------------------------------|




e|------------------------------------------------------------------|
b|------------------------------------------------------------------|
g|555-555-5-7~------------------------------------------------------|
d|555-555-5-7~------------------------------------------------------|
a|333-333-3-5~------------------------------------------------------|
e|------------------------------------------------------------------|



Guitar 2: (baseclly all chorus long)
e|----------------------------------------7-77----------------------|
b|8-88-7-77-8-88-7-77-8-88-7-77-7-77-7-88------87~------------------|
g|------------------------------------------------------------------|
d|------------------------------------------------------------------|
a|------------------------------------------------------------------|
e|------------------------------------------------------------------|



[Pre Verse:]
Guitar 1:
e|000-000-0-000-000-0-----------------------------------------------|
b|000-000-0-111-111-1-----------------------------------------------|
g|111-222-1-000-000-0-----------------------------------------------|
d|222-222-2-222-333-2-----------------------------------------------| X2
a|222-222-2-333-333-3-----------------------------------------------|
e|000-000-0---------------------------------------------------------|



Guitar 2:
e|12-14----12-------------------------------------------------------|
b|------13----------------------------------------------------------|
g|------------------------------------------------------------------|
d|------------------------------------------------------------------| X2
a|------------------------------------------------------------------|
e|------------------------------------------------------------------|



[Verse:]
Guitar 1:
e|000-000-0-000-000-0-----------------------------------------------|
b|000-000-0-111-111-1-----------------------------------------------|
g|111-222-1-000-000-0-----X3----------------------------------------|
d|222-222-2-222-333-2----------7777777-5555555----------------------|
a|222-222-2-333-333-3----------7777777-5555555----------------------|
e|000-000-0--------------------5555555-3333333----------------------|




e|000-000-0-000-000-0-----------------------------------------------|
b|000-000-0-111-111-1-----------------------------------------------|
g|111-222-1-000-000-0-----X3----------------------------------------|
d|222-222-2-222-333-2----------7777777-5555555----------------------|
a|222-222-2-333-333-3----------7777777-5555555----------------------|
e|000-000-0--------------------5555555-3333333----------------------|



Guitar 2: (baseclly comes at the 2nd part of the 2nd verse)
e|------------------------------------------------------------------|
b|------------------------------------------------------------------|
g|999999999999999999999999-7777-6666--------------------------------|
d|------------------------------------------------------------------|
a|------------------------------------------------------------------|
e|------------------------------------------------------------------|



[Chorus:]
Guitar 1:
e|------------------------------------------------------------------|
b|------------------------------------------------------------------|
g|555-555-5-777-777-7-999-999-9-777-777-7---------------------------|
d|555-555-5-777-777-7-999-999-9-777-777-7---------------------------|
a|333-333-3-555-555-5-777-777-7-555-555-5---------------------------|
e|------------------------------------------------------------------|




e|------------------------------------------------------------------|
b|------------------------------------------------------------------|
g|555-555-5-777-777-7-444-444-4-999-999-9---------------------------|
d|555-555-5-777-777-7-444-444-4-999-999-9---------------------------|
a|333-333-3-555-555-5-222-222-2-777-777-7---------------------------|
e|------------------------------------------------------------------|




e|------------------------------------------------------------------|
b|------------------------------------------------------------------|
g|555-555-5-777-777-7-999-999-9-777-777-7---------------------------|
d|555-555-5-777-777-7-999-999-9-777-777-7---------------------------|
a|333-333-3-555-555-5-777-777-7-555-555-5---------------------------|
e|------------------------------------------------------------------|




e|------------------------------------------------------------------|
b|------------------------------------------------------------------|
g|555-555-5-777-777-7-----------------------------------------------|
d|555-555-5-777-777-7-----------------------------------------------|
a|333-333-3-555-555-5-----------------------------------------------|
e|------------------------------------------------------------------|



Guitar 2:
e|----------------------------------------7-77-----------------------|
b|8-88-7-77-8-88-7-77-8-88-7-77-7-77-7-88------87--------------------|
g|-------------------------------------------------------------------|
d|-------------------------------------------------------------------|
a|-------------------------------------------------------------------|
e|-------------------------------------------------------------------|




e|------------------------------------------------------------------|
b|7-77-8-88-7-77-8-88-----------------------------------------------|
g|------------------------------------------------------------------|
d|------------------------------------------------------------------|
a|------------------------------------------------------------------|
e|------------------------------------------------------------------|



[Verse 3]
Guitar 1:
e|------------------------------------------|-----------------------|
b|------------------------------------------|-----------------------|
g|444-444-4-----------444-444-4-------------|------4~---------------|
d|444-444-4-333-333-3-444-444-4-333-333-3---|X3----4~---------------|
a|222-222-2-333-333-3-222-222-2-333-111-3---|------2~---------------|
e|----------111-111-1-----------111-111-1---|-----------------------|



Guitar 2:
e|------------------------------------------------------------------|
b|------------------------------------------------------------------|
g|------------------------------------------------------------------|
d|777--66666-222-33333----------------------------------------------| X3
a|------------------------------------------------------------------|
e|------------------------------------------------------------------|



Guitar 2: (continue after guitar one finishes, guitar 2 plays solo)
e|12-14----12----|-------12~~~--------------------------------------|
b|------13-------|--------------------------------------------------|
g|---------------|--------------------------------------------------|
d|---------------|X3------------------------------------------------|
a|---------------|--------------------------------------------------|
e|---------------|--------------------------------------------------|



[Chorus:]
Guitar 1:
e|------------------------------------------------------------------|
b|------------------------------------------------------------------|
g|555-555-5-777-777-7-999-999-9-777-777-7---------------------------|
d|555-555-5-777-777-7-999-999-9-777-777-7---------------------------|
a|333-333-3-555-555-5-777-777-7-555-555-5---------------------------|
e|------------------------------------------------------------------|




e|------------------------------------------------------------------|
b|------------------------------------------------------------------|
g|555-555-5-777-777-7-444-444-4-999-999-9---------------------------|
d|555-555-5-777-777-7-444-444-4-999-999-9---------------------------|
a|333-333-3-555-555-5-222-222-2-777-777-7---------------------------|
e|------------------------------------------------------------------|




e|------------------------------------------------------------------|
b|------------------------------------------------------------------|
g|555-555-5-777-777-7-999-999-9-777-777-7---------------------------|
d|555-555-5-777-777-7-999-999-9-777-777-7---------------------------|
a|333-333-3-555-555-5-777-777-7-555-555-5---------------------------|
e|------------------------------------------------------------------|




e|------------------------------------------------------------------|
b|------------------------------------------------------------------|
g|555-555-5-777-777-7-----------------------------------------------|
d|555-555-5-777-777-7-----------------------------------------------|
a|333-333-3-555-555-5-----------------------------------------------|
e|------------------------------------------------------------------|



Guitar 2:
e|----------------------------------------7-77-----------------------|
b|8-88-7-77-8-88-7-77-8-88-7-77-7-77-7-88------87--------------------|
g|-------------------------------------------------------------------|
d|-------------------------------------------------------------------|
a|-------------------------------------------------------------------|
e|-------------------------------------------------------------------|




e|------------------------------------------------------------------|
b|7-77-8-88-7-77-8-88-----------------------------------------------|
g|------------------------------------------------------------------|
d|------------------------------------------------------------------|
a|------------------------------------------------------------------|
e|------------------------------------------------------------------|



[Outo:]
Guitar 1:
e|------------------------------------------------------------------|
b|------------------------------------------------------------------|
g|999-999-9-555-555-5-999-999-9-555-555-5---------------------------|
d|999-999-9-555-555-5-999-999-9-555-555-5---------------------------| X4
a|777-777-7-333-333-3-777-777-7-333-333-3---------------------------|
e|------------------------------------------------------------------|



Guitar 2:
e|------------------------------------------------------------------|
b|------------------------------------------------------------------|
g|------------------------------------------------------------------|
d|666-7-9-222-3-2---------------------------------------------------| X4
a|------------------------------------------------------------------|
e|------------------------------------------------------------------|



Guitar 1: End
e|------------------------------------------------------------------|
b|------------------------------------------------------------------|
g|77-7-7-9----------------------------------------------------------|
d|77-7-7-9----------------------------------------------------------|
a|55-5-5-7----------------------------------------------------------|
e|------------------------------------------------------------------|
Revenir en haut Aller en bas
Omelli
Bébé Th
Omelli

Féminin Nombre de messages : 32
Age : 27
Localisation : ~#\"London"/#~
Date d'inscription : 16/02/2007

Tablature "Durch den monsun" Empty
MessageSujet: Re: Tablature "Durch den monsun"   Tablature "Durch den monsun" Icon_minitimeJeu 22 Fév - 10:10

thanks What a Face Exclamation bon..je sais pas jouer de la guitare *creuse un trou et s'enfonce dedans* et en plus j'y comprends rien *s'enfonce encore plus dans le trou*...
Revenir en haut Aller en bas
 
Tablature "Durch den monsun"
Revenir en haut 
Page 1 sur 1

Permission de ce forum:Vous ne pouvez pas répondre aux sujets dans ce forum
Tokio Hotel Forever :: Hors sujet :: Tablatures-
Sauter vers: